Scorpions – Wind Of Change

Scorpions est un groupe de heavy metal/hard rock, allemand fondé en 1965 à Hanovre, en Allemagne. Leur premier album a vu le jour en 1972.

Le groupe a connu un prestige planétaire – surtout à partir des années 1980 – en raison de titres hard rock tels que No One Like You en 1982 ou Rock You Like a Hurricane en 1984 et de ballades à l’instar de Still Loving You la même année ou Wind of Change et Send Me an Angel en 1990, toutes chansons au succès commercial presque systématique.

Suites sur le wiki : http://fr.wikipedia.org/wiki/Scorpions

Scorpions – Wind Of Change tablatures

E||--17--19-20--|--17--19--20--22-20-----|--17--19-20--|--17--19--20--22-20--|--20--22--24--25-24--20--|
B||-------------|------------------------|-------------|---------------------|-------------------------|
G||-------------|------------------------|-------------|---------------------|-------------------------|
D||-------------|------------------------|-------------|---------------------|-------------------------|
A||-------------|------------------------|-------------|---------------------|-------------------------|
E||-------------|------------------------|-------------|---------------------|-------------------------|

--22--17--20--|-19-|
--------------|----|
--------------|----|
--------------|----|
--------------|----|
--------------|----|

This way is easier but it doesn't sound as the original

E||--5--7-8--|--5--7--8--10-8-----|--5--7-8--|--5--7--8--10-8--|--8--10--12--13-12--8--|--10--5--8--|-7-|
B||----------|--------------------|----------|-----------------|-----------------------|------------|---|
G||----------|--------------------|----------|-----------------|-----------------------|------------|---|
D||----------|--------------------|----------|-----------------|-----------------------|------------|---|
A||----------|--------------------|----------|-----------------|-----------------------|------------|---|
E||----------|--------------------|----------|-----------------|-----------------------|------------|---|

E|-----1-----------0-------------------------------|
B|--------3-----------1----------3--0-----1--------|
G|-----------2-----------0-------------0--0--------|
D|--0-------------------------------------2--------|
A|--------------0-------------------------3--------|
E|----------------------------3--------------------|

La suite sur : http://www.guitaretab.com/s/scorpions/16912.html

 

Si j’ai changé, c’est par de toi , pour te dire je t’aime … Et la suite bien sur …

Scorpions - E-dédicasse for all

Scorpions - E-dédicasse for all

 

Wind of Change est une chanson du groupe de hard rock allemand Scorpions composée en 1990 par le chanteur du groupe Klaus Meine et issue de l’album Crazy World.

La suite sur Wiki : http://fr.wikipedia.org/wiki/Wind_of_Change_(chanson)